  0
SECTION
  2
HEADER
  9
$ACADVER
  1
AC1015
  9
$ACADMAINTVER
 70
     6
  9
$DWGCODEPAGE
  3
ANSI_1254
  9
$INSBASE
 10
0.0
 20
0.0
 30
0.0
  9
$EXTMIN
 10
0.0
 20
0.0
 30
0.0
  9
$EXTMAX
 10
279.4
 20
215.9
 30
0.0
  9
$LIMMIN
 10
0.0
 20
0.0
  9
$LIMMAX
 10
279.4
 20
215.9
  9
$ORTHOMODE
 70
     0
  9
$REGENMODE
 70
     1
  9
$FILLMODE
 70
     1
  9
$QTEXTMODE
 70
     0
  9
$MIRRTEXT
 70
     1
  9
$LTSCALE
 40
1.0
  9
$ATTMODE
 70
     1
  9
$TEXTSIZE
 40
3.5
  9
$TRACEWID
 40
1.0
  9
$TEXTSTYLE
  7
Standard
  9
$CLAYER
  8
0
  9
$CELTYPE
  6
ByLayer
  9
$CECOLOR
 62
   256
  9
$CELTSCALE
 40
1.0
  9
$DISPSILH
 70
     0
  9
$DIMSCALE
 40
1.0
  9
$DIMASZ
 40
3.5
  9
$DIMEXO
 40
1.0
  9
$DIMDLI
 40
3.75
  9
$DIMRND
 40
0.0
  9
$DIMDLE
 40
0.0
  9
$DIMEXE
 40
1.0
  9
$DIMTP
 40
0.0
  9
$DIMTM
 40
0.0
  9
$DIMTXT
 40
3.5
  9
$DIMCEN
 40
2.5
  9
$DIMTSZ
 40
0.0
  9
$DIMTOL
 70
     0
  9
$DIMLIM
 70
     0
  9
$DIMTIH
 70
     1
  9
$DIMTOH
 70
     1
  9
$DIMSE1
 70
     0
  9
$DIMSE2
 70
     0
  9
$DIMTAD
 70
     1
  9
$DIMZIN
 70
     0
  9
$DIMBLK
  1

  9
$DIMASO
 70
     1
  9
$DIMSHO
 70
     1
  9
$DIMPOST
  1

  9
$DIMAPOST
  1

  9
$DIMALT
 70
     0
  9
$DIMALTD
 70
     3
  9
$DIMALTF
 40
0.0393700787
  9
$DIMLFAC
 40
1.0
  9
$DIMTOFL
 70
     1
  9
$DIMTVP
 40
0.0
  9
$DIMTIX
 70
     0
  9
$DIMSOXD
 70
     0
  9
$DIMSAH
 70
     0
  9
$DIMBLK1
  1

  9
$DIMBLK2
  1

  9
$DIMSTYLE
  2
ISO-25
  9
$DIMCLRD
 70
     0
  9
$DIMCLRE
 70
     0
  9
$DIMCLRT
 70
     0
  9
$DIMTFAC
 40
1.0
  9
$DIMGAP
 40
1.524
  9
$DIMJUST
 70
     0
  9
$DIMSD1
 70
     0
  9
$DIMSD2
 70
     0
  9
$DIMTOLJ
 70
     0
  9
$DIMTZIN
 70
     0
  9
$DIMALTZ
 70
     0
  9
$DIMALTTZ
 70
     0
  9
$DIMUPT
 70
     0
  9
$DIMDEC
 70
     2
  9
$DIMTDEC
 70
     2
  9
$DIMALTU
 70
     2
  9
$DIMALTTD
 70
     3
  9
$DIMTXSTY
  7
Standard
  9
$DIMAUNIT
 70
     0
  9
$DIMADEC
 70
     2
  9
$DIMALTRND
 40
0.0
  9
$DIMAZIN
 70
     0
  9
$DIMDSEP
 70
    44
  9
$DIMATFIT
 70
     3
  9
$DIMFRAC
 70
     0
  9
$DIMLDRBLK
  1

  9
$DIMLUNIT
 70
     2
  9
$DIMLWD
 70
    -2
  9
$DIMLWE
 70
    -2
  9
$DIMTMOVE
 70
     0
  9
$LUNITS
 70
     2
  9
$LUPREC
 70
     2
  9
$SKETCHINC
 40
1.0
  9
$FILLETRAD
 40
10.0
  9
$AUNITS
 70
     0
  9
$AUPREC
 70
     2
  9
$MENU
  1
.
  9
$ELEVATION
 40
0.0
  9
$PELEVATION
 40
0.0
  9
$THICKNESS
 40
0.0
  9
$LIMCHECK
 70
     0
  9
$CHAMFERA
 40
0.0
  9
$CHAMFERB
 40
0.0
  9
$CHAMFERC
 40
0.0
  9
$CHAMFERD
 40
0.0
  9
$SKPOLY
 70
     0
  9
$TDCREATE
 40
2458985.705333947
  9
$TDUCREATE
 40
2458985.580333947
  9
$TDUPDATE
 40
2458985.705334387
  9
$TDUUPDATE
 40
2458985.580334387
  9
$TDINDWG
 40
0.0000000116
  9
$TDUSRTIMER
 40
0.0000000116
  9
$USRTIMER
 70
     1
  9
$ANGBASE
 50
0.0
  9
$ANGDIR
 70
     0
  9
$PDMODE
 70
     0
  9
$PDSIZE
 40
-1.0
  9
$PLINEWID
 40
0.0
  9
$SPLFRAME
 70
     0
  9
$SPLINETYPE
 70
     6
  9
$SPLINESEGS
 70
     8
  9
$HANDSEED
  5
EB
  9
$SURFTAB1
 70
     6
  9
$SURFTAB2
 70
     6
  9
$SURFTYPE
 70
     6
  9
$SURFU
 70
     6
  9
$SURFV
 70
     6
  9
$UCSBASE
  2

  9
$UCSNAME
  2

  9
$UCSORG
 10
0.0
 20
0.0
 30
0.0
  9
$UCSXDIR
 10
1.0
 20
0.0
 30
0.0
  9
$UCSYDIR
 10
0.0
 20
1.0
 30
0.0
  9
$UCSORTHOREF
  2

  9
$UCSORTHOVIEW
 70
     0
  9
$UCSORGTOP
 10
0.0
 20
0.0
 30
0.0
  9
$UCSORGBOTTOM
 10
0.0
 20
0.0
 30
0.0
  9
$UCSORGLEFT
 10
0.0
 20
0.0
 30
0.0
  9
$UCSORGRIGHT
 10
0.0
 20
0.0
 30
0.0
  9
$UCSORGFRONT
 10
0.0
 20
0.0
 30
0.0
  9
$UCSORGBACK
 10
0.0
 20
0.0
 30
0.0
  9
$PUCSBASE
  2

  9
$PUCSNAME
  2

  9
$PUCSORG
 10
0.0
 20
0.0
 30
0.0
  9
$PUCSXDIR
 10
1.0
 20
0.0
 30
0.0
  9
$PUCSYDIR
 10
0.0
 20
1.0
 30
0.0
  9
$PUCSORTHOREF
  2

  9
$PUCSORTHOVIEW
 70
     0
  9
$PUCSORGTOP
 10
0.0
 20
0.0
 30
0.0
  9
$PUCSORGBOTTOM
 10
0.0
 20
0.0
 30
0.0
  9
$PUCSORGLEFT
 10
0.0
 20
0.0
 30
0.0
  9
$PUCSORGRIGHT
 10
0.0
 20
0.0
 30
0.0
  9
$PUCSORGFRONT
 10
0.0
 20
0.0
 30
0.0
  9
$PUCSORGBACK
 10
0.0
 20
0.0
 30
0.0
  9
$USERI1
 70
     0
  9
$USERI2
 70
     0
  9
$USERI3
 70
     0
  9
$USERI4
 70
     0
  9
$USERI5
 70
     0
  9
$USERR1
 40
0.0
  9
$USERR2
 40
0.0
  9
$USERR3
 40
0.0
  9
$USERR4
 40
0.0
  9
$USERR5
 40
0.0
  9
$WORLDVIEW
 70
     1
  9
$SHADEDGE
 70
     3
  9
$SHADEDIF
 70
    70
  9
$TILEMODE
 70
     1
  9
$MAXACTVP
 70
    64
  9
$PINSBASE
 10
0.0
 20
0.0
 30
0.0
  9
$PLIMCHECK
 70
     0
  9
$PEXTMIN
 10
1.0000000000E+20
 20
1.0000000000E+20
 30
1.0000000000E+20
  9
$PEXTMAX
 10
-1.0000000000E+20
 20
-1.0000000000E+20
 30
-1.0000000000E+20
  9
$PLIMMIN
 10
0.0
 20
0.0
  9
$PLIMMAX
 10
420.0
 20
297.0
  9
$UNITMODE
 70
     0
  9
$VISRETAIN
 70
     1
  9
$PLINEGEN
 70
     0
  9
$PSLTSCALE
 70
     1
  9
$TREEDEPTH
 70
  3020
  9
$CMLSTYLE
  2
Standard
  9
$CMLJUST
 70
     0
  9
$CMLSCALE
 40
20.0
  9
$PROXYGRAPHICS
 70
     1
  9
$MEASUREMENT
 70
     1
  9
$CELWEIGHT
370
    -1
  9
$ENDCAPS
280
     0
  9
$JOINSTYLE
280
     0
  9
$LWDISPLAY
290
     1
  9
$INSUNITS
 70
     4
  9
$HYPERLINKBASE
  1

  9
$STYLESHEET
  1

  9
$XEDIT
290
     1
  9
$CEPSNTYPE
380
     0
  9
$PSTYLEMODE
290
     1
  9
$FINGERPRINTGUID
  2
{14350d28-f94e-4dde-b92b-14c4c2be4c63}
  9
$VERSIONGUID
  2
{FAEB1C32-E019-11D5-929B-00C0DF256EC4}
  9
$EXTNAMES
290
     1
  9
$PSVPSCALE
 40
0.0
  9
$OLESTARTUP
290
     0
  0
ENDSEC
  0
SECTION
  2
CLASSES
  0
CLASS
  1
ACDBDICTIONARYWDFLT
  2
AcDbDictionaryWithDefault
  3
ObjectDBX Classes
 90
        0
280
     0
281
     0
  0
CLASS
  1
VISUALSTYLE
  2
AcDbVisualStyle
  3
ObjectDBX Classes
 90
     4095
280
     0
281
     0
  0
CLASS
  1
MATERIAL
  2
AcDbMaterial
  3
ObjectDBX Classes
 90
     1153
280
     0
281
     0
  0
CLASS
  1
SCALE
  2
AcDbScale
  3
ObjectDBX Classes
 90
     1153
280
     0
281
     0
  0
CLASS
  1
TABLESTYLE
  2
AcDbTableStyle
  3
ObjectDBX Classes
 90
     4095
280
     0
281
     0
  0
CLASS
  1
MLEADERSTYLE
  2
AcDbMLeaderStyle
  3
ACDB_MLEADERSTYLE_CLASS
 90
     4095
280
     0
281
     0
  0
CLASS
  1
SUN
  2
AcDbSun
  3
SCENEOE
 90
     1153
280
     0
281
     0
  0
CLASS
  1
ACDBPLACEHOLDER
  2
AcDbPlaceHolder
  3
ObjectDBX Classes
 90
        0
280
     0
281
     0
  0
CLASS
  1
LAYOUT
  2
AcDbLayout
  3
ObjectDBX Classes
 90
        0
280
     0
281
     0
  0
ENDSEC
  0
SECTION
  2
TABLES
  0
TABLE
  2
VPORT
  5
8
330
0
100
AcDbSymbolTable
 70
     1
  0
VPORT
  5
29
330
8
100
AcDbSymbolTableRecord
100
AcDbViewportTableRecord
  2
*Active
 70
     0
 10
0.0
 20
0.0
 11
1.0
 21
1.0
 12
139.7
 22
107.95
 13
0.0
 23
0.0
 14
10.0
 24
10.0
 15
10.0
 25
10.0
 16
0.0
 26
0.0
 36
1.0
 17
0.0
 27
0.0
 37
0.0
 40
215.9
 41
1.2941176471
 42
50.0
 43
0.0
 44
0.0
 50
0.0
 51
0.0
 71
     0
 72
  2000
 73
     1
 74
     3
 75
     0
 76
     0
 77
     0
 78
     0
281
     0
 65
     1
110
0.0
120
0.0
130
0.0
111
1.0
121
0.0
131
0.0
112
0.0
122
1.0
132
0.0
 79
     0
146
0.0
  0
ENDTAB
  0
TABLE
  2
LTYPE
  5
5
330
0
100
AcDbSymbolTable
 70
     6
  0
LTYPE
  5
14
330
5
100
AcDbSymbolTableRecord
100
AcDbLinetypeTableRecord
  2
ByBlock
 70
     0
  3

 72
    65
 73
     0
 40
0.0
  0
LTYPE
  5
15
330
5
100
AcDbSymbolTableRecord
100
AcDbLinetypeTableRecord
  2
ByLayer
 70
     0
  3

 72
    65
 73
     0
 40
0.0
  0
LTYPE
  5
16
330
5
100
AcDbSymbolTableRecord
100
AcDbLinetypeTableRecord
  2
Continuous
 70
     0
  3
Solid line
 72
    65
 73
     0
 40
0.0
  0
LTYPE
  5
6E
330
5
100
AcDbSymbolTableRecord
100
AcDbLinetypeTableRecord
  2
HIDDEN
 70
     0
  3
Hidden __ __ __ __ __ __ __ __ __ __ __ __ __ __
 72
    65
 73
     2
 40
1.905
 49
1.27
 74
     0
 49
-0.635
 74
     0
  0
LTYPE
  5
6F
330
5
100
AcDbSymbolTableRecord
100
AcDbLinetypeTableRecord
  2
PHANTOM
 70
     0
  3
Phantom ______  __  __  ______  __  __  ______
 72
    65
 73
     6
 40
12.7
 49
6.35
 74
     0
 49
-1.27
 74
     0
 49
1.27
 74
     0
 49
-1.27
 74
     0
 49
1.27
 74
     0
 49
-1.27
 74
     0
  0
LTYPE
  5
70
330
5
100
AcDbSymbolTableRecord
100
AcDbLinetypeTableRecord
  2
CENTER
 70
     0
  3
Center ____ _ ____ _ ____ _ ____ _ ____ _ ____
 72
    65
 73
     4
 40
10.16
 49
6.35
 74
     0
 49
-1.27
 74
     0
 49
1.27
 74
     0
 49
-1.27
 74
     0
  0
LTYPE
  5
71
330
5
100
AcDbSymbolTableRecord
100
AcDbLinetypeTableRecord
  2
CENTERX2
 70
     0
  3
Center (2x) ________  __  ________  __  _____
 72
    65
 73
     4
 40
20.32
 49
12.7
 74
     0
 49
-2.54
 74
     0
 49
2.54
 74
     0
 49
-2.54
 74
     0
  0
LTYPE
  5
72
330
5
100
AcDbSymbolTableRecord
100
AcDbLinetypeTableRecord
  2
DOT2
 70
     0
  3
Dot (.5x) ........................................
 72
    65
 73
     2
 40
0.635
 49
0.0
 74
     0
 49
-0.635
 74
     0
  0
ENDTAB
  0
TABLE
  2
LAYER
  5
2
330
0
100
AcDbSymbolTable
 70
    17
  0
LAYER
  5
10
330
2
100
AcDbSymbolTableRecord
100
AcDbLayerTableRecord
  2
0
 70
     0
 62
     7
  6
Continuous
370
    -3
390
F
  0
LAYER
  5
73
330
2
100
AcDbSymbolTableRecord
100
AcDbLayerTableRecord
  2
FORMAT
 70
     0
 62
     7
  6
Continuous
370
    -3
390
F
  0
LAYER
  5
74
330
2
100
AcDbSymbolTableRecord
100
AcDbLayerTableRecord
  2
YARDIMCI_GEOMETRI
 70
     0
 62
    -6
  6
Continuous
290
     0
370
    -3
390
F
  0
LAYER
  5
75
330
2
100
AcDbSymbolTableRecord
100
AcDbLayerTableRecord
  2
SAYFA_CERCEVESI
 70
     0
 62
     7
  6
Continuous
370
    25
390
F
  0
LAYER
  5
76
330
2
100
AcDbSymbolTableRecord
100
AcDbLayerTableRecord
  2
ANTET
 70
     0
 62
     7
  6
Continuous
370
    -3
390
F
  0
LAYER
  5
77
330
2
100
AcDbSymbolTableRecord
100
AcDbLayerTableRecord
  2
OLCU
 70
     0
 62
   150
  6
Continuous
370
    -3
390
F
  0
LAYER
  5
78
330
2
100
AcDbSymbolTableRecord
100
AcDbLayerTableRecord
  2
METIN
 70
     0
 62
    96
  6
Continuous
370
    -3
390
F
  0
LAYER
  5
79
330
2
100
AcDbSymbolTableRecord
100
AcDbLayerTableRecord
  2
BALON
 70
     0
 62
     5
  6
Continuous
370
    -3
390
F
  0
LAYER
  5
7A
330
2
100
AcDbSymbolTableRecord
100
AcDbLayerTableRecord
  2
VURGU
 70
     0
 62
     7
  6
Continuous
370
    -3
390
F
  0
LAYER
  5
7B
330
2
100
AcDbSymbolTableRecord
100
AcDbLayerTableRecord
  2
SILIK
 70
     0
 62
     7
  6
Continuous
370
    -3
390
F
  0
LAYER
  5
7C
330
2
100
AcDbSymbolTableRecord
100
AcDbLayerTableRecord
  2
MODEL
 70
     0
 62
     7
  6
Continuous
370
    -3
390
F
  0
LAYER
  5
7D
330
2
100
AcDbSymbolTableRecord
100
AcDbLayerTableRecord
  2
DETAYLANDıRMA
 70
     0
 62
   190
  6
Continuous
370
    -3
390
F
  0
LAYER
  5
7E
330
2
100
AcDbSymbolTableRecord
100
AcDbLayerTableRecord
  2
TOLERANS
 70
     0
 62
   230
  6
Continuous
370
    -3
390
F
  0
LAYER
  5
7F
330
2
100
AcDbSymbolTableRecord
100
AcDbLayerTableRecord
  2
MERKEZ_CIZGILERI
 70
     0
 62
    30
  6
Continuous
370
    -3
390
F
  0
LAYER
  5
80
330
2
100
AcDbSymbolTableRecord
100
AcDbLayerTableRecord
  2
KESIT-DETAY_CIZGILERI
 70
     0
 62
     7
  6
Continuous
370
    -3
390
F
  0
LAYER
  5
81
330
2
100
AcDbSymbolTableRecord
100
AcDbLayerTableRecord
  2
\U+041E\U+0421\U+0415\U+0412\U+042B\U+0415
 70
     0
 62
     7
  6
Continuous
370
    -3
390
F
  0
LAYER
  5
82
330
2
100
AcDbSymbolTableRecord
100
AcDbLayerTableRecord
  2
\U+0412\U+041E\U+0414\U+042F\U+041D\U+042B\U+0415_\U+0417\U+041D\U+0410\U+041A\U+0418
 70
     0
 62
    11
  6
Continuous
370
    -3
390
F
  0
ENDTAB
  0
TABLE
  2
STYLE
  5
3
330
0
100
AcDbSymbolTable
 70
     1
  0
STYLE
  5
11
330
3
100
AcDbSymbolTableRecord
100
AcDbTextStyleTableRecord
  2
Standard
 70
     0
 40
0.0
 41
1.0
 50
0.0
 71
     0
 42
3.5
  3
txt
  4

  0
ENDTAB
  0
TABLE
  2
VIEW
  5
6
330
0
100
AcDbSymbolTable
 70
     0
  0
ENDTAB
  0
TABLE
  2
UCS
  5
7
330
0
100
AcDbSymbolTable
 70
     0
  0
ENDTAB
  0
TABLE
  2
APPID
  5
9
330
0
100
AcDbSymbolTable
 70
     1
  0
APPID
  5
12
330
9
100
AcDbSymbolTableRecord
100
AcDbRegAppTableRecord
  2
ACAD
 70
     0
  0
ENDTAB
  0
TABLE
  2
DIMSTYLE
  5
A
330
0
100
AcDbSymbolTable
 70
     1
100
AcDbDimStyleTable
  0
DIMSTYLE
105
27
330
A
100
AcDbSymbolTableRecord
100
AcDbDimStyleTableRecord
  2
ISO-25
 70
     0
 41
2.5
 42
0.625
 43
3.75
 44
1.25
 73
     0
 74
     0
 77
     1
 78
     8
140
2.5
141
2.5
143
0.0393700787
147
0.625
171
     3
172
     1
178
     0
271
     2
272
     2
274
     3
278
    44
283
     0
284
     8
340
11
  0
ENDTAB
  0
TABLE
  2
BLOCK_RECORD
  5
1
330
0
100
AcDbSymbolTable
 70
     2
  0
BLOCK_RECORD
  5
1F
330
1
100
AcDbSymbolTableRecord
100
AcDbBlockTableRecord
  2
*Model_Space
340
22
  0
BLOCK_RECORD
  5
1B
330
1
100
AcDbSymbolTableRecord
100
AcDbBlockTableRecord
  2
*Paper_Space
340
1E
  0
BLOCK_RECORD
  5
23
330
1
100
AcDbSymbolTableRecord
100
AcDbBlockTableRecord
  2
*Paper_Space0
340
26
  0
BLOCK_RECORD
  5
88
330
1
100
AcDbSymbolTableRecord
100
AcDbBlockTableRecord
  2
SW_CENTERMARKSYMBOL_0
340
0
102
{BLKREFS
331
93
102
}
  0
ENDTAB
  0
ENDSEC
  0
SECTION
  2
BLOCKS
  0
BLOCK
  5
20
330
1F
100
AcDbEntity
  8
0
100
AcDbBlockBegin
  2
*Model_Space
 70
     0
 10
0.0
 20
0.0
 30
0.0
  3
*Model_Space
  1

  0
ENDBLK
  5
21
330
1F
100
AcDbEntity
  8
0
100
AcDbBlockEnd
  0
BLOCK
  5
1C
330
1B
100
AcDbEntity
 67
     1
  8
0
100
AcDbBlockBegin
  2
*Paper_Space
 70
     0
 10
0.0
 20
0.0
 30
0.0
  3
*Paper_Space
  1

  0
ENDBLK
  5
1D
330
1B
100
AcDbEntity
 67
     1
  8
0
100
AcDbBlockEnd
  0
BLOCK
  5
24
330
23
100
AcDbEntity
  8
0
100
AcDbBlockBegin
  2
*Paper_Space0
 70
     0
 10
0.0
 20
0.0
 30
0.0
  3
*Paper_Space0
  1

  0
ENDBLK
  5
25
330
23
100
AcDbEntity
  8
0
100
AcDbBlockEnd
  0
BLOCK
  5
89
330
88
100
AcDbEntity
  8
0
100
AcDbBlockBegin
  2
SW_CENTERMARKSYMBOL_0
 70
     0
 10
0.0
 20
0.0
 30
0.0
  3
SW_CENTERMARKSYMBOL_0
  1

  0
LINE
  5
8B
330
88
100
AcDbEntity
  8
FORMAT
 62
     0
100
AcDbLine
 10
0.0
 20
0.0
 30
0.0
 11
0.0
 21
2.5
 31
0.0
  0
LINE
  5
8C
330
88
100
AcDbEntity
  8
FORMAT
 62
     0
100
AcDbLine
 10
0.0
 20
0.0
 30
0.0
 11
-2.5
 21
0.0
 31
0.0
  0
LINE
  5
8D
330
88
100
AcDbEntity
  8
FORMAT
 62
     0
100
AcDbLine
 10
0.0
 20
0.0
 30
0.0
 11
0.0
 21
-2.5
 31
0.0
  0
LINE
  5
8E
330
88
100
AcDbEntity
  8
FORMAT
 62
     0
100
AcDbLine
 10
0.0
 20
0.0
 30
0.0
 11
2.5
 21
0.0
 31
0.0
  0
LINE
  5
8F
330
88
100
AcDbEntity
  8
FORMAT
 62
     0
100
AcDbLine
 10
0.0
 20
5.0
 30
0.0
 11
0.0
 21
47.5
 31
0.0
  0
LINE
  5
90
330
88
100
AcDbEntity
  8
FORMAT
 62
     0
100
AcDbLine
 10
-5.0
 20
0.0
 30
0.0
 11
-47.5
 21
0.0
 31
0.0
  0
LINE
  5
91
330
88
100
AcDbEntity
  8
FORMAT
 62
     0
100
AcDbLine
 10
0.0
 20
-5.0
 30
0.0
 11
0.0
 21
-47.5
 31
0.0
  0
LINE
  5
92
330
88
100
AcDbEntity
  8
FORMAT
 62
     0
100
AcDbLine
 10
5.0
 20
0.0
 30
0.0
 11
47.5
 21
0.0
 31
0.0
  0
ENDBLK
  5
8A
330
88
100
AcDbEntity
  8
0
100
AcDbBlockEnd
  0
ENDSEC
  0
SECTION
  2
ENTITIES
  0
CIRCLE
  5
83
330
1F
100
AcDbEntity
  8
0
  6
Continuous
 62
     7
370
    25
100
AcDbCircle
 10
136.0804557792
 20
118.8813202377
 30
0.0
 40
45.00000000000001
  0
CIRCLE
  5
84
330
1F
100
AcDbEntity
  8
0
  6
Continuous
 62
     7
370
    25
100
AcDbCircle
 10
136.0804557792
 20
118.8813202377
 30
0.0
 40
39.59999999999999
  0
CIRCLE
  5
85
330
1F
100
AcDbEntity
  8
0
  6
Continuous
 62
     7
370
    25
100
AcDbCircle
 10
136.0804557792
 20
118.8813202377
 30
0.0
 40
39.54679567682426
  0
CIRCLE
  5
86
330
1F
100
AcDbEntity
  8
0
  6
Continuous
 62
     7
370
    25
100
AcDbCircle
 10
136.0804557792
 20
118.8813202377
 30
0.0
 40
33.05320432317576
  0
CIRCLE
  5
87
330
1F
100
AcDbEntity
  8
0
  6
Continuous
 62
     7
370
    25
100
AcDbCircle
 10
136.0804557792
 20
118.8813202377
 30
0.0
 40
33.00000000000001
  0
INSERT
  5
93
330
1F
100
AcDbEntity
  8
FORMAT
 62
     7
100
AcDbBlockReference
  2
SW_CENTERMARKSYMBOL_0
 10
136.0804557792
 20
118.8813202377
 30
0.0
  0
ARC
  5
94
330
1F
100
AcDbEntity
  8
0
  6
Continuous
 62
     7
370
    25
100
AcDbCircle
 10
-74.5000131872
 20
161.8813202377
 30
0.0
 40
2.0
100
AcDbArc
 50
81.634113876
 51
90.0
  0
ARC
  5
95
330
1F
100
AcDbEntity
  8
0
  6
Continuous
 62
     7
370
    25
100
AcDbCircle
 10
-74.5000131872
 20
75.8813202377
 30
0.0
 40
2.0
100
AcDbArc
 50
270.0
 51
278.365886124
  0
LINE
  5
96
330
1F
100
AcDbEntity
  8
0
  6
Continuous
 62
     7
370
    25
100
AcDbLine
 10
-74.5000139947
 20
163.8813220259
 30
0.0
 11
-153.353738519
 21
163.8813220259
 31
0.0
  0
LINE
  5
97
330
1F
100
AcDbEntity
  8
0
  6
Continuous
 62
     7
370
    25
100
AcDbLine
 10
-153.353738519
 20
73.8813184496
 30
0.0
 11
-74.5000139947
 21
73.8813184496
 31
0.0
  0
LINE
  5
98
330
1F
100
AcDbEntity
  8
0
  6
Continuous
 62
     7
370
    25
100
AcDbLine
 10
-74.2090259815
 20
73.902601033
 30
0.0
 11
-23.4984559143
 21
81.3600398894
 31
0.0
  0
LINE
  5
99
330
1F
100
AcDbEntity
  8
0
  6
Continuous
 62
     7
370
    25
100
AcDbLine
 10
-23.4984559143
 20
156.402600586
 30
0.0
 11
-74.2090259815
 21
163.8600394424
 31
0.0
  0
ARC
  5
9A
330
1F
100
AcDbEntity
  8
0
  6
Continuous
 62
     7
370
    25
100
AcDbCircle
 10
-23.2074687433
 20
158.3813202377
 30
0.0
 40
2.0
100
AcDbArc
 50
261.634113876
 51
270.0
  0
ARC
  5
9B
330
1F
100
AcDbEntity
  8
0
  6
Continuous
 62
     7
370
    25
100
AcDbCircle
 10
-23.2074687433
 20
79.3813202377
 30
0.0
 40
2.000000000000008
100
AcDbArc
 50
90.0
 51
98.365886124
  0
LINE
  5
9C
330
1F
100
AcDbEntity
  8
0
  6
Continuous
 62
     7
370
    25
100
AcDbLine
 10
46.6462570106
 20
156.3813217278
 30
0.0
 11
-23.2074679012
 21
156.3813217278
 31
0.0
  0
LINE
  5
9D
330
1F
100
AcDbEntity
  8
0
  6
Continuous
 62
     7
370
    25
100
AcDbLine
 10
-23.2074679012
 20
81.3813187476
 30
0.0
 11
46.6462570106
 21
81.3813187476
 31
0.0
  0
LINE
  5
9E
330
1F
100
AcDbEntity
  8
0
  6
Continuous
 62
     7
370
    25
100
AcDbLine
 10
-153.353738519
 20
163.8813220259
 30
0.0
 11
-153.353738519
 21
73.8813184496
 31
0.0
  0
LINE
  5
9F
330
1F
100
AcDbEntity
  8
0
  6
Continuous
 62
     7
370
    25
100
AcDbLine
 10
46.6462570106
 20
156.3813217278
 30
0.0
 11
46.6462570106
 21
81.3813187476
 31
0.0
  0
LINE
  5
A0
330
1F
100
AcDbEntity
  8
0
  6
Continuous
 62
     1
370
    25
100
AcDbLine
 10
-74.2090259815
 20
163.8600394424
 30
0.0
 11
-74.2090259815
 21
73.902601033
 31
0.0
  0
LINE
  5
A1
330
1F
100
AcDbEntity
  8
0
  6
Continuous
 62
     1
370
    25
100
AcDbLine
 10
-74.5000139947
 20
163.8813220259
 30
0.0
 11
-74.5000139947
 21
73.8813184496
 31
0.0
  0
LINE
  5
A2
330
1F
100
AcDbEntity
  8
0
  6
Continuous
 62
     1
370
    25
100
AcDbLine
 10
-23.4984559143
 20
156.402600586
 30
0.0
 11
-23.4984559143
 21
81.3600398894
 31
0.0
  0
LINE
  5
A3
330
1F
100
AcDbEntity
  8
0
  6
Continuous
 62
     1
370
    25
100
AcDbLine
 10
-23.2074679012
 20
156.3813217278
 30
0.0
 11
-23.2074679012
 21
81.3813187476
 31
0.0
  0
ARC
  5
A4
330
1F
100
AcDbEntity
  8
0
  6
Continuous
 62
     7
370
    25
100
AcDbCircle
 10
179.0804557792
 20
326.6235476185
 30
0.0
 40
2.000000000000001
100
AcDbArc
 50
351.634113876
 51
0.0
  0
ARC
  5
A5
330
1F
100
AcDbEntity
  8
0
  6
Continuous
 62
     7
370
    25
100
AcDbCircle
 10
93.0804557792
 20
326.6235476185
 30
0.0
 40
2.000000000000001
100
AcDbArc
 50
180.0
 51
188.365886124
  0
LINE
  5
A6
330
1F
100
AcDbEntity
  8
0
  6
Continuous
 62
     7
370
    25
100
AcDbLine
 10
181.0804575673
 20
326.623548426
 30
0.0
 11
181.0804575673
 21
405.4772729504
 31
0.0
  0
LINE
  5
A7
330
1F
100
AcDbEntity
  8
0
  6
Continuous
 62
     7
370
    25
100
AcDbLine
 10
91.080453991
 20
405.4772729504
 30
0.0
 11
91.080453991
 21
326.623548426
 31
0.0
  0
LINE
  5
A8
330
1F
100
AcDbEntity
  8
0
  6
Continuous
 62
     7
370
    25
100
AcDbLine
 10
91.1017365745
 20
326.3325604129
 30
0.0
 11
98.5591754309
 21
275.6219903457
 31
0.0
  0
LINE
  5
A9
330
1F
100
AcDbEntity
  8
0
  6
Continuous
 62
     7
370
    25
100
AcDbLine
 10
173.6017361275
 20
275.6219903457
 30
0.0
 11
181.0591749839
 21
326.3325604129
 31
0.0
  0
ARC
  5
AA
330
1F
100
AcDbEntity
  8
0
  6
Continuous
 62
     7
370
    25
100
AcDbCircle
 10
175.5804557792
 20
275.3310031746
 30
0.0
 40
2.0
100
AcDbArc
 50
171.634113876
 51
180.0
  0
ARC
  5
AB
330
1F
100
AcDbEntity
  8
0
  6
Continuous
 62
     7
370
    25
100
AcDbCircle
 10
96.5804557792
 20
275.3310031746
 30
0.0
 40
2.000000000000021
100
AcDbArc
 50
0.0
 51
8.365886124
  0
LINE
  5
AC
330
1F
100
AcDbEntity
  8
0
  6
Continuous
 62
     7
370
    25
100
AcDbLine
 10
173.5804572693
 20
205.4772774208
 30
0.0
 11
173.5804572693
 21
275.3310023326
 31
0.0
  0
LINE
  5
AD
330
1F
100
AcDbEntity
  8
0
  6
Continuous
 62
     7
370
    25
100
AcDbLine
 10
98.5804542891
 20
275.3310023326
 30
0.0
 11
98.5804542891
 21
205.4772774208
 31
0.0
  0
LINE
  5
AE
330
1F
100
AcDbEntity
  8
0
  6
Continuous
 62
     7
370
    25
100
AcDbLine
 10
181.0804575673
 20
405.4772729504
 30
0.0
 11
91.080453991
 21
405.4772729504
 31
0.0
  0
LINE
  5
AF
330
1F
100
AcDbEntity
  8
0
  6
Continuous
 62
     7
370
    25
100
AcDbLine
 10
173.5804572693
 20
205.4772774208
 30
0.0
 11
98.5804542891
 21
205.4772774208
 31
0.0
  0
LINE
  5
B0
330
1F
100
AcDbEntity
  8
0
  6
Continuous
 62
     1
370
    25
100
AcDbLine
 10
181.0591749839
 20
326.3325604129
 30
0.0
 11
91.1017365745
 21
326.3325604129
 31
0.0
  0
LINE
  5
B1
330
1F
100
AcDbEntity
  8
0
  6
Continuous
 62
     1
370
    25
100
AcDbLine
 10
181.0804575673
 20
326.623548426
 30
0.0
 11
91.080453991
 21
326.623548426
 31
0.0
  0
LINE
  5
B2
330
1F
100
AcDbEntity
  8
0
  6
Continuous
 62
     1
370
    25
100
AcDbLine
 10
173.6017361275
 20
275.6219903457
 30
0.0
 11
98.5591754309
 21
275.6219903457
 31
0.0
  0
LINE
  5
B3
330
1F
100
AcDbEntity
  8
0
  6
Continuous
 62
     1
370
    25
100
AcDbLine
 10
173.5804572693
 20
275.3310023326
 30
0.0
 11
98.5804542891
 21
275.3310023326
 31
0.0
  0
ARC
  5
B4
330
1F
100
AcDbEntity
  8
0
  6
Continuous
 62
     7
370
    25
100
AcDbCircle
 10
355.6025062195
 20
75.8813202377
 30
0.0
 40
2.000000000000001
100
AcDbArc
 50
261.634113876
 51
270.0
  0
ARC
  5
B5
330
1F
100
AcDbEntity
  8
0
  6
Continuous
 62
     7
370
    25
100
AcDbCircle
 10
355.6025062195
 20
161.8813202377
 30
0.0
 40
2.000000000000001
100
AcDbArc
 50
90.0
 51
98.365886124
  0
LINE
  5
B6
330
1F
100
AcDbEntity
  8
0
  6
Continuous
 62
     7
370
    25
100
AcDbLine
 10
355.602507027
 20
73.8813184496
 30
0.0
 11
434.4562315514
 21
73.8813184496
 31
0.0
  0
LINE
  5
B7
330
1F
100
AcDbEntity
  8
0
  6
Continuous
 62
     7
370
    25
100
AcDbLine
 10
434.4562315514
 20
163.8813220259
 30
0.0
 11
355.602507027
 21
163.8813220259
 31
0.0
  0
LINE
  5
B8
330
1F
100
AcDbEntity
  8
0
  6
Continuous
 62
     7
370
    25
100
AcDbLine
 10
355.3115190139
 20
163.8600394424
 30
0.0
 11
304.6009489467
 21
156.402600586
 31
0.0
  0
LINE
  5
B9
330
1F
100
AcDbEntity
  8
0
  6
Continuous
 62
     7
370
    25
100
AcDbLine
 10
304.6009489467
 20
81.3600398894
 30
0.0
 11
355.3115190139
 21
73.902601033
 31
0.0
  0
ARC
  5
BA
330
1F
100
AcDbEntity
  8
0
  6
Continuous
 62
     7
370
    25
100
AcDbCircle
 10
304.3099617756
 20
79.3813202377
 30
0.0
 40
2.000000000000016
100
AcDbArc
 50
81.634113876
 51
90.0
  0
ARC
  5
BB
330
1F
100
AcDbEntity
  8
0
  6
Continuous
 62
     7
370
    25
100
AcDbCircle
 10
304.3099617756
 20
158.3813202377
 30
0.0
 40
2.000000000000001
100
AcDbArc
 50
270.0
 51
278.365886124
  0
LINE
  5
BC
330
1F
100
AcDbEntity
  8
0
  6
Continuous
 62
     7
370
    25
100
AcDbLine
 10
234.4562360218
 20
81.3813187476
 30
0.0
 11
304.3099609336
 21
81.3813187476
 31
0.0
  0
LINE
  5
BD
330
1F
100
AcDbEntity
  8
0
  6
Continuous
 62
     7
370
    25
100
AcDbLine
 10
304.3099609336
 20
156.3813217278
 30
0.0
 11
234.4562360218
 21
156.3813217278
 31
0.0
  0
LINE
  5
BE
330
1F
100
AcDbEntity
  8
0
  6
Continuous
 62
     7
370
    25
100
AcDbLine
 10
434.4562315514
 20
118.8813202377
 30
0.0
 11
434.4562315514
 21
163.8813220259
 31
0.0
  0
LINE
  5
BF
330
1F
100
AcDbEntity
  8
0
  6
Continuous
 62
     7
370
    25
100
AcDbLine
 10
434.4562315514
 20
73.8813184496
 30
0.0
 11
434.4562315514
 21
118.8813202377
 31
0.0
  0
LINE
  5
C0
330
1F
100
AcDbEntity
  8
0
  6
Continuous
 62
     7
370
    25
100
AcDbLine
 10
234.4562360218
 20
118.8813202377
 30
0.0
 11
234.4562360218
 21
156.3813217278
 31
0.0
  0
LINE
  5
C1
330
1F
100
AcDbEntity
  8
0
  6
Continuous
 62
     7
370
    25
100
AcDbLine
 10
234.4562360218
 20
81.3813187476
 30
0.0
 11
234.4562360218
 21
118.8813202377
 31
0.0
  0
LINE
  5
C2
330
1F
100
AcDbEntity
  8
0
  6
Continuous
 62
     1
370
    25
100
AcDbLine
 10
355.3115190139
 20
118.8813202377
 30
0.0
 11
355.3115190139
 21
163.8600394424
 31
0.0
  0
LINE
  5
C3
330
1F
100
AcDbEntity
  8
0
  6
Continuous
 62
     1
370
    25
100
AcDbLine
 10
355.3115190139
 20
73.902601033
 30
0.0
 11
355.3115190139
 21
118.8813202377
 31
0.0
  0
LINE
  5
C4
330
1F
100
AcDbEntity
  8
0
  6
Continuous
 62
     1
370
    25
100
AcDbLine
 10
355.602507027
 20
118.8813202377
 30
0.0
 11
355.602507027
 21
163.8813220259
 31
0.0
  0
LINE
  5
C5
330
1F
100
AcDbEntity
  8
0
  6
Continuous
 62
     1
370
    25
100
AcDbLine
 10
355.602507027
 20
73.8813184496
 30
0.0
 11
355.602507027
 21
118.8813202377
 31
0.0
  0
LINE
  5
C6
330
1F
100
AcDbEntity
  8
0
  6
Continuous
 62
     1
370
    25
100
AcDbLine
 10
304.6009489467
 20
118.8813202377
 30
0.0
 11
304.6009489467
 21
156.402600586
 31
0.0
  0
LINE
  5
C7
330
1F
100
AcDbEntity
  8
0
  6
Continuous
 62
     1
370
    25
100
AcDbLine
 10
304.6009489467
 20
81.3600398894
 30
0.0
 11
304.6009489467
 21
118.8813202377
 31
0.0
  0
LINE
  5
C8
330
1F
100
AcDbEntity
  8
0
  6
Continuous
 62
     1
370
    25
100
AcDbLine
 10
304.3099609336
 20
118.8813202377
 30
0.0
 11
304.3099609336
 21
156.3813217278
 31
0.0
  0
LINE
  5
C9
330
1F
100
AcDbEntity
  8
0
  6
Continuous
 62
     1
370
    25
100
AcDbLine
 10
304.3099609336
 20
81.3813187476
 30
0.0
 11
304.3099609336
 21
118.8813202377
 31
0.0
  0
ARC
  5
CA
330
1F
100
AcDbEntity
  8
0
  6
Continuous
 62
     7
370
    25
100
AcDbCircle
 10
93.0804557792
 20
-97.1239382036
 30
0.0
 40
2.0
100
AcDbArc
 50
171.634113876
 51
180.0
  0
ARC
  5
CB
330
1F
100
AcDbEntity
  8
0
  6
Continuous
 62
     7
370
    25
100
AcDbCircle
 10
179.0804557792
 20
-97.1239382036
 30
0.0
 40
2.0
100
AcDbArc
 50
0.0
 51
8.365886124
  0
LINE
  5
CC
330
1F
100
AcDbEntity
  8
0
  6
Continuous
 62
     7
370
    25
100
AcDbLine
 10
91.080453991
 20
-97.1239390111
 30
0.0
 11
91.080453991
 21
-175.9776635355
 31
0.0
  0
LINE
  5
CD
330
1F
100
AcDbEntity
  8
0
  6
Continuous
 62
     7
370
    25
100
AcDbLine
 10
181.0804575673
 20
-175.9776635355
 30
0.0
 11
181.0804575673
 21
-97.1239390111
 31
0.0
  0
LINE
  5
CE
330
1F
100
AcDbEntity
  8
0
  6
Continuous
 62
     7
370
    25
100
AcDbLine
 10
181.0591749839
 20
-96.8329509979
 30
0.0
 11
173.6017361275
 21
-46.1223809308
 31
0.0
  0
LINE
  5
CF
330
1F
100
AcDbEntity
  8
0
  6
Continuous
 62
     7
370
    25
100
AcDbLine
 10
98.5591754309
 20
-46.1223809308
 30
0.0
 11
91.1017365745
 21
-96.8329509979
 31
0.0
  0
ARC
  5
D0
330
1F
100
AcDbEntity
  8
0
  6
Continuous
 62
     7
370
    25
100
AcDbCircle
 10
96.5804557792
 20
-45.8313937597
 30
0.0
 40
2.000000000000022
100
AcDbArc
 50
351.634113876
 51
0.0
  0
ARC
  5
D1
330
1F
100
AcDbEntity
  8
0
  6
Continuous
 62
     7
370
    25
100
AcDbCircle
 10
175.5804557792
 20
-45.8313937597
 30
0.0
 40
2.0
100
AcDbArc
 50
180.0
 51
188.365886124
  0
LINE
  5
D2
330
1F
100
AcDbEntity
  8
0
  6
Continuous
 62
     7
370
    25
100
AcDbLine
 10
98.5804542891
 20
24.0223319942
 30
0.0
 11
98.5804542891
 21
-45.8313929176
 31
0.0
  0
LINE
  5
D3
330
1F
100
AcDbEntity
  8
0
  6
Continuous
 62
     7
370
    25
100
AcDbLine
 10
173.5804572693
 20
-45.8313929176
 30
0.0
 11
173.5804572693
 21
24.0223319942
 31
0.0
  0
LINE
  5
D4
330
1F
100
AcDbEntity
  8
0
  6
Continuous
 62
     7
370
    25
100
AcDbLine
 10
91.080453991
 20
-175.9776635355
 30
0.0
 11
181.0804575673
 21
-175.9776635355
 31
0.0
  0
LINE
  5
D5
330
1F
100
AcDbEntity
  8
0
  6
Continuous
 62
     7
370
    25
100
AcDbLine
 10
98.5804542891
 20
24.0223319942
 30
0.0
 11
173.5804572693
 21
24.0223319942
 31
0.0
  0
LINE
  5
D6
330
1F
100
AcDbEntity
  8
0
  6
Continuous
 62
     1
370
    25
100
AcDbLine
 10
91.1017365745
 20
-96.8329509979
 30
0.0
 11
181.0591749839
 21
-96.8329509979
 31
0.0
  0
LINE
  5
D7
330
1F
100
AcDbEntity
  8
0
  6
Continuous
 62
     1
370
    25
100
AcDbLine
 10
91.080453991
 20
-97.1239390111
 30
0.0
 11
181.0804575673
 21
-97.1239390111
 31
0.0
  0
LINE
  5
D8
330
1F
100
AcDbEntity
  8
0
  6
Continuous
 62
     1
370
    25
100
AcDbLine
 10
98.5591754309
 20
-46.1223809308
 30
0.0
 11
173.6017361275
 21
-46.1223809308
 31
0.0
  0
LINE
  5
D9
330
1F
100
AcDbEntity
  8
0
  6
Continuous
 62
     1
370
    25
100
AcDbLine
 10
98.5804542891
 20
-45.8313929176
 30
0.0
 11
173.5804572693
 21
-45.8313929176
 31
0.0
  0
LINE
  5
DA
330
1F
100
AcDbEntity
  8
0
  6
Continuous
 62
     7
370
    25
100
AcDbLine
 10
358.1054766888
 20
-33.2460136855
 30
0.0
 11
302.3474733558
 21
-1.057603511
 31
0.0
  0
LINE
  5
DB
330
1F
100
AcDbEntity
  8
0
  6
Continuous
 62
     7
370
    25
100
AcDbLine
 10
257.3511291007
 20
-79.002001867
 30
0.0
 11
313.1091324337
 21
-111.1904120415
 31
0.0
  0
SPLINE
  5
DC
330
1F
100
AcDbEntity
  8
0
  6
Continuous
 62
     7
370
    25
100
AcDbSpline
210
0.0
220
0.0
230
1.0
 70
     8
 71
     3
 72
    10
 73
     6
 74
     0
 42
0.000000001
 43
0.00000001
 40
0.0
 40
0.0
 40
0.0
 40
0.0
 40
0.3673847438209392
 40
0.8951074261467592
 40
1.0
 40
1.0
 40
1.0
 40
1.0
 10
360.4911397797755
 20
-34.94267565185187
 30
0.0
 10
360.2134512357686
 20
-34.71064009813521
 30
0.0
 10
359.5368823741677
 20
-34.14530157835418
 30
0.0
 10
358.7272785032401
 20
-33.58889786376663
 30
0.0
 10
358.1804517414625
 20
-33.29856090766356
 30
0.0
 10
358.0897835731968
 20
-33.2504207619543
 30
0.0
  0
SPLINE
  5
DD
330
1F
100
AcDbEntity
  8
0
  6
Continuous
 62
     7
370
    25
100
AcDbSpline
210
0.0
220
0.0
230
1.0
 70
     8
 71
     3
 72
    10
 73
     6
 74
     0
 42
0.000000001
 43
0.00000001
 40
0.0
 40
0.0
 40
0.0
 40
0.0
 40
0.3806110521810021
 40
0.8856881287086353
 40
1.0
 40
1.0
 40
1.0
 40
1.0
 10
313.0212536203439
 20
-111.123556000515
 30
0.0
 10
313.3578295380588
 20
-111.3162633404872
 30
0.0
 10
314.1410471903604
 20
-111.7646964649338
 30
0.0
 10
315.0739329261029
 20
-112.1867155244518
 30
0.0
 10
315.6808916106297
 20
-112.3825845526274
 30
0.0
 10
315.7929094037613
 20
-112.4187333331597
 30
0.0
  0
LINE
  5
DE
330
1F
100
AcDbEntity
  8
0
  6
Continuous
 62
     7
370
    25
100
AcDbLine
 10
315.7864280087
 20
-112.4298057718
 30
0.0
 11
354.9646171466
 21
-126.4827099813
 31
0.0
  0
LINE
  5
DF
330
1F
100
AcDbEntity
  8
0
  6
Continuous
 62
     7
370
    25
100
AcDbLine
 10
392.2794203549
 20
-61.8445712767
 30
0.0
 11
360.5176290741
 21
-34.9446975601
 31
0.0
  0
LINE
  5
E0
330
1F
100
AcDbEntity
  8
0
  6
Continuous
 62
     7
370
    25
100
AcDbLine
 10
440.0191306385
 20
-89.1937791445
 30
0.0
 11
391.4993375067
 21
-61.1838987766
 31
0.0
  0
LINE
  5
E1
330
1F
100
AcDbEntity
  8
0
  6
Continuous
 62
     7
370
    25
100
AcDbLine
 10
354.0023848388
 20
-126.1375645804
 30
0.0
 11
402.5221779706
 21
-154.1474449483
 31
0.0
  0
LWPOLYLINE
  5
E2
330
1F
100
AcDbEntity
  8
0
  6
Continuous
 62
     7
370
    25
100
AcDbPolyline
 90
      105
 70
   128
 43
0.0
 10
248.0294948104
 20
-58.3989859349
 10
248.0875494601
 20
-56.1469039143
 10
248.2614974064
 20
-53.836013245
 10
248.5507064467
 20
-51.4747449298
 10
248.9541229098
 20
-49.0717139637
 10
249.4702690217
 20
-46.6356925278
 10
250.0972666136
 20
-44.1755656942
 10
250.8328265847
 20
-41.700311273
 10
251.6742620734
 20
-39.2189617904
 10
252.6185068966
 20
-36.7405710298
 10
253.6621155493
 20
-34.2741805716
 10
254.8012763759
 20
-31.828793939
 10
256.0318352777
 20
-29.4133309717
 10
257.3493009811
 20
-27.0366065342
 10
258.7488674283
 20
-24.7072932548
 10
260.2254269482
 20
-22.4338895874
 10
261.7735913295
 20
-20.2246924372
 10
263.3877128945
 20
-18.087759139
 10
265.0619003041
 20
-16.0308922496
 10
266.7900462165
 20
-14.0615962043
 10
268.5658430924
 20
-12.1870529833
 10
270.382812171
 20
-10.4141053842
 10
272.234323226
 20
-8.749224324
 10
274.1136209081
 20
-7.1984784232
 10
276.0138474639
 20
-5.7675330572
 10
277.9280692429
 20
-4.4616076778
 10
279.8493012282
 20
-3.285464694
 10
281.7705332136
 20
-2.2434004435
 10
283.6847549926
 20
-1.3392124003
 10
285.5849815484
 20
-0.5762028846
 10
287.4642792304
 20
0.042842133
 10
289.3157902855
 20
0.5156702346
 10
291.1327593641
 20
0.84055048
 10
292.90855624
 20
1.0162986902
 10
294.6367021524
 20
1.0422774448
 10
296.310889562
 20
0.918386194
 10
297.925011127
 20
0.6450779864
 10
299.4731755083
 20
0.2233533833
 10
300.9497350281
 20
-0.34525095
 10
302.3493014754
 20
-1.058659205
 10
303.6667671788
 20
-1.9142701191
 10
304.8973260806
 20
-2.9089600204
 10
306.0364869072
 20
-4.0390995585
 10
307.0800955599
 20
-5.3005651138
 10
308.024340383
 20
-6.6887540072
 10
308.8657758718
 20
-8.1986027535
 10
309.6013358429
 20
-9.824597709
 10
310.2283334348
 20
-11.560808532
 10
310.7444795467
 20
-13.4009003519
 10
311.1478960098
 20
-15.338156584
 10
311.4371050501
 20
-17.3655112488
 10
311.6110529964
 20
-19.4755658941
 10
311.669107646
 20
-21.660619443
 10
311.6110529964
 20
-23.9127014636
 10
311.4371050501
 20
-26.2235921329
 10
311.1478960098
 20
-28.5848604481
 10
310.7444795467
 20
-30.9878914142
 10
310.2283334348
 20
-33.4239128501
 10
309.6013358429
 20
-35.8840396837
 10
308.8657758718
 20
-38.3592941049
 10
308.024340383
 20
-40.8406435875
 10
307.0800955599
 20
-43.3190343481
 10
306.0364869072
 20
-45.7854248063
 10
304.8973260806
 20
-48.2308114389
 10
303.6667671788
 20
-50.6462744062
 10
302.3493014754
 20
-53.0229988437
 10
300.9497350281
 20
-55.3523121232
 10
299.4731755083
 20
-57.6257157905
 10
297.925011127
 20
-59.8349129407
 10
296.310889562
 20
-61.9718462389
 10
294.6367021524
 20
-64.0287131283
 10
292.90855624
 20
-65.9980091736
 10
291.1327593641
 20
-67.8725523946
 10
289.3157902855
 20
-69.6454999938
 10
287.4642792304
 20
-71.310381054
 10
285.5849815484
 20
-72.8611269548
 10
283.6847549926
 20
-74.2920723207
 10
281.7705332136
 20
-75.5979977001
 10
279.8493012282
 20
-76.7741406839
 10
277.9280692429
 20
-77.8162049345
 10
276.0138474639
 20
-78.7203929776
 10
274.1136209081
 20
-79.4834024933
 10
272.234323226
 20
-80.1024475109
 10
270.382812171
 20
-80.5752756125
 10
268.5658430924
 20
-80.9001558579
 10
266.7900462165
 20
-81.0759040681
 10
265.0619003041
 20
-81.1018828227
 10
263.3877128945
 20
-80.9779915719
 10
261.7735913295
 20
-80.7046833643
 10
260.2254269482
 20
-80.2829587613
 10
258.7488674283
 20
-79.7143544279
 10
257.3493009811
 20
-79.0009461729
 10
256.0318352777
 20
-78.1453352588
 10
254.8012763759
 20
-77.1506453575
 10
253.6621155493
 20
-76.0205058194
 10
252.6185068966
 20
-74.7590402641
 10
251.6742620734
 20
-73.3708513707
 10
250.8328265847
 20
-71.8610026244
 10
250.0972666136
 20
-70.2350076689
 10
249.4702690217
 20
-68.4987968459
 10
248.9541229098
 20
-66.658705026
 10
248.5507064467
 20
-64.7214487939
 10
248.2614974064
 20
-62.6940941291
 10
248.0875494601
 20
-60.5840394838
 10
248.0294948104
 20
-58.3989859349
  0
LWPOLYLINE
  5
E3
330
1F
100
AcDbEntity
  8
0
  6
Continuous
 62
     7
370
    25
100
AcDbPolyline
 90
       99
 70
   128
 43
0.0
 10
251.847872845
 20
-56.1946832155
 10
251.9054059274
 20
-54.0897585101
 10
252.0777628302
 20
-51.927060426
 10
252.364242862
 20
-49.7154718644
 10
252.763663277
 20
-47.4640832878
 10
253.2743856164
 20
-45.1821455735
 10
253.8943078061
 20
-42.8790369328
 10
254.6208852301
 20
-40.5642188063
 10
255.4511333647
 20
-38.2472058257
 10
256.3816383153
 20
-35.9375163845
 10
257.4085752552
 20
-33.6446437427
 10
258.5277268655
 20
-31.3780096397
 10
259.7344938713
 20
-29.1469277935
 10
261.0239161154
 20
-26.9605658792
 10
262.3906962657
 20
-24.8279075084
 10
263.8292169377
 20
-22.7577180097
 10
265.3335683529
 20
-20.7585026061
 10
266.8975680954
 20
-18.8384752375
 10
268.5147887709
 20
-17.0055319476
 10
270.1785863238
 20
-15.267194992
 10
271.8821224279
 20
-13.6306151221
 10
273.6183974137
 20
-12.1025160743
 10
275.3802762807
 20
-10.6891765112
 10
277.1605193199
 20
-9.3964032185
 10
278.9518112542
 20
-8.2295081986
 10
280.7467912023
 20
-7.1932883311
 10
282.5380831366
 20
-6.2920017062
 10
284.3183261758
 20
-5.5293501368
 10
286.0802050428
 20
-4.9084676597
 10
287.8164800286
 20
-4.4319062793
 10
289.5200161327
 20
-4.1016252291
 10
291.1838136856
 20
-3.9189824193
 10
292.8010343611
 20
-3.8847224619
 10
294.3650341036
 20
-3.9989941643
 10
295.8693855188
 20
-4.2613223947
 10
297.3079061907
 20
-4.6706312784
 10
298.6746863411
 20
-5.2252388773
 10
299.9641085852
 20
-5.9228655572
 10
301.170875591
 20
-6.7606438758
 10
302.2900272013
 20
-7.7351330336
 10
303.3169641412
 20
-8.8423295225
 10
304.2474690918
 20
-10.0776808157
 10
305.0777172264
 20
-11.4361097041
 10
305.8042946504
 20
-12.9120393931
 10
306.4242168401
 20
-14.4994011086
 10
306.9349391795
 20
-16.1916713613
 10
307.3343595944
 20
-17.9818989429
 10
307.6208396263
 20
-19.8627247002
 10
307.7931965291
 20
-21.8264237401
 10
307.8507296115
 20
-23.8649221625
 10
307.7931965291
 20
-25.9698468678
 10
307.6208396263
 20
-28.1325449519
 10
307.3343595944
 20
-30.3441335135
 10
306.9349391795
 20
-32.5955220901
 10
306.4242168401
 20
-34.8774598044
 10
305.8042946504
 20
-37.1805684451
 10
305.0777172264
 20
-39.4953865716
 10
304.2474690918
 20
-41.8123995522
 10
303.3169641412
 20
-44.1220889934
 10
302.2900272013
 20
-46.4149616352
 10
301.170875591
 20
-48.6815957382
 10
299.9641085852
 20
-50.9126775844
 10
298.6746863411
 20
-53.0990394987
 10
297.3079061907
 20
-55.2316978695
 10
295.8693855188
 20
-57.3018873682
 10
294.3650341036
 20
-59.3011027718
 10
292.8010343611
 20
-61.2211301404
 10
291.1838136856
 20
-63.0540734303
 10
289.5200161327
 20
-64.7924103859
 10
287.8164800286
 20
-66.4289902558
 10
286.0802050428
 20
-67.9570893036
 10
284.3183261758
 20
-69.3704288667
 10
282.5380831366
 20
-70.6632021594
 10
280.7467912023
 20
-71.8300971793
 10
278.9518112542
 20
-72.8663170468
 10
277.1605193199
 20
-73.7676036717
 10
275.3802762807
 20
-74.5302552411
 10
273.6183974137
 20
-75.1511377182
 10
271.8821224279
 20
-75.6276990986
 10
270.1785863238
 20
-75.9579801488
 10
268.5147887709
 20
-76.1406229586
 10
266.8975680954
 20
-76.174882916
 10
265.3335683529
 20
-76.0606112136
 10
263.8292169377
 20
-75.7982829832
 10
262.3906962657
 20
-75.3889740995
 10
261.0239161154
 20
-74.8343665006
 10
259.7344938713
 20
-74.1367398207
 10
258.5277268655
 20
-73.2989615021
 10
257.4085752552
 20
-72.3244723443
 10
256.3816383153
 20
-71.2172758554
 10
255.4511333647
 20
-69.9819245622
 10
254.6208852301
 20
-68.6234956738
 10
253.8943078061
 20
-67.1475659848
 10
253.2743856164
 20
-65.5602042693
 10
252.763663277
 20
-63.8679340166
 10
252.364242862
 20
-62.077706435
 10
252.0777628302
 20
-60.1968806777
 10
251.9054059274
 20
-58.2331816378
 10
251.847872845
 20
-56.1946832155
  0
LINE
  5
E4
330
1F
100
AcDbEntity
  8
0
  6
Continuous
 62
     7
370
    25
100
AcDbLine
 10
392.2794203549
 20
-61.8445712767
 30
0.0
 11
392.381160213
 21
-61.9316446987
 31
0.0
  0
LINE
  5
E5
330
1F
100
AcDbEntity
  8
0
  6
Continuous
 62
     7
370
    25
100
AcDbLine
 10
355.0176312966
 20
-126.501594968
 30
0.0
 11
354.9646171466
 21
-126.4827099813
 31
0.0
  0
LWPOLYLINE
  5
E6
330
1F
100
AcDbEntity
  8
0
  6
Continuous
 62
     7
370
    25
100
AcDbPolyline
 90
       50
 70
   128
 43
0.0
 10
440.0191306385
 20
-89.1937791445
 10
440.4798786693
 20
-89.473168535
 10
441.6459660638
 20
-90.3121780283
 10
442.7229563376
 20
-91.288312674
 10
443.7061435317
 20
-92.3972989896
 10
444.5912247162
 20
-93.6342901413
 10
445.3743289666
 20
-94.9938796353
 10
446.0520371198
 20
-96.4701165285
 10
446.6213804571
 20
-98.0565510566
 10
447.0798723144
 20
-99.7462430019
 10
447.4255080823
 20
-101.5318038992
 10
447.6567731085
 20
-103.405428025
 10
447.7726611368
 20
-105.3589194912
 10
447.7726611368
 20
-107.3837388219
 10
447.6567731085
 20
-109.4710317576
 10
447.4255080823
 20
-111.611668799
 10
447.0798723144
 20
-113.7962922596
 10
446.6213804571
 20
-116.0153476356
 10
446.0520371198
 20
-118.2591319889
 10
445.3743289666
 20
-120.5178340605
 10
444.5912247162
 20
-122.7815764765
 10
443.7061435317
 20
-125.0404606123
 10
442.7229563376
 20
-127.2846106996
 10
441.6459660638
 20
-129.5042118475
 10
440.4798786693
 20
-131.6895571888
 10
439.2297939229
 20
-133.8310942673
 10
437.9011790609
 20
-135.9194554535
 10
436.499842446
 20
-137.9455096542
 10
435.0319138105
 20
-139.9003980517
 10
433.503808695
 20
-141.7755728847
 10
431.9222126432
 20
-143.5628339488
 10
430.294039714
 20
-145.2543662352
 10
428.6264094321
 20
-146.8427714885
 10
426.9266151778
 20
-148.321104705
 10
425.2020879675
 20
-149.6829041685
 10
423.4603699467
 20
-150.9222128352
 10
421.7090767299
 20
-152.0336122423
 10
419.95586649
 20
-153.0122403521
 10
418.2084055495
 20
-153.8538174999
 10
416.4743347122
 20
-154.5546688715
 10
414.7612375296
 20
-155.1117276139
 10
413.0766036285
 20
-155.5225529637
 10
411.427801134
 20
-155.7853552925
 10
409.8220384745
 20
-155.8989816545
 10
408.2663377098
 20
-155.862937267
 10
406.7675009464
 20
-155.6773775225
 10
405.3320833361
 20
-155.34311445
 10
403.9663608082
 20
-154.8616094875
 10
402.6763063614
 20
-154.2349689174
 10
402.5221779706
 20
-154.1474449483
  0
LWPOLYLINE
  5
E7
330
1F
100
AcDbEntity
  8
0
  6
Continuous
 62
     1
370
    25
100
AcDbPolyline
 90
       54
 70
   128
 43
0.0
 10
358.1054766888
 20
-33.2460136855
 10
358.1073048084
 20
-33.2470693796
 10
359.4247705118
 20
-34.1026802937
 10
360.6553294136
 20
-35.097370195
 10
361.7944902402
 20
-36.2275097331
 10
362.8380988929
 20
-37.4889752884
 10
363.7823437161
 20
-38.8771641818
 10
364.6237792048
 20
-40.3870129281
 10
365.3593391759
 20
-42.0130078836
 10
365.9863367678
 20
-43.7492187066
 10
366.5024828797
 20
-45.5893105264
 10
366.9058993428
 20
-47.5265667586
 10
367.1951083831
 20
-49.5539214234
 10
367.3690563294
 20
-51.6639760687
 10
367.427110979
 20
-53.8490296176
 10
367.3690563294
 20
-56.1011116382
 10
367.1951083831
 20
-58.4120023074
 10
366.9058993428
 20
-60.7732706227
 10
366.5024828797
 20
-63.1763015887
 10
365.9863367678
 20
-65.6123230247
 10
365.3593391759
 20
-68.0724498583
 10
364.6237792048
 20
-70.5477042794
 10
363.7823437161
 20
-73.0290537621
 10
362.8380988929
 20
-75.5074445227
 10
361.7944902402
 20
-77.9738349808
 10
360.6553294136
 20
-80.4192216135
 10
359.4247705118
 20
-82.8346845808
 10
358.1073048084
 20
-85.2114090183
 10
356.7077383611
 20
-87.5407222977
 10
355.2311788413
 20
-89.814125965
 10
353.68301446
 20
-92.0233231153
 10
352.068892895
 20
-94.1602564135
 10
350.3947054854
 20
-96.2171233029
 10
348.666559573
 20
-98.1864193481
 10
346.8907626971
 20
-100.0609625692
 10
345.0737936185
 20
-101.8339101683
 10
343.2222825634
 20
-103.4987912285
 10
341.3429848814
 20
-105.0495371293
 10
339.4427583256
 20
-106.4804824953
 10
337.5285365466
 20
-107.7864078746
 10
335.6073045612
 20
-108.9625508585
 10
333.6860725759
 20
-110.004615109
 10
331.7718507969
 20
-110.9088031522
 10
329.8716242411
 20
-111.6718126679
 10
327.992326559
 20
-112.2908576855
 10
326.140815504
 20
-112.7636857871
 10
324.3238464254
 20
-113.0885660325
 10
322.5480495495
 20
-113.2643142427
 10
320.8199036371
 20
-113.2902929973
 10
319.1457162275
 20
-113.1664017465
 10
317.5315946625
 20
-112.8930935388
 10
315.9834302812
 20
-112.4713689358
 10
314.5068707613
 20
-111.9027646024
 10
313.1091324337
 20
-111.1904120415
  0
LWPOLYLINE
  5
E8
330
1F
100
AcDbEntity
  8
0
  6
Continuous
 62
     1
370
    25
100
AcDbPolyline
 90
       51
 70
   128
 43
0.0
 10
360.5015052703
 20
-34.9310594265
 10
360.8492431123
 20
-35.2337076169
 10
361.9878665666
 20
-36.3633132597
 10
363.0309799938
 20
-37.6241825656
 10
363.9747770067
 20
-39.0117158979
 10
364.8158173688
 20
-40.5208482511
 10
365.5510269942
 20
-42.1460751063
 10
366.1777295581
 20
-43.8814646017
 10
366.6936333257
 20
-45.7206856687
 10
367.0968548596
 20
-47.6570278062
 10
367.3859295568
 20
-49.683422374
 10
367.5597958436
 20
-51.792478714
 10
367.6178215173
 20
-53.9764997417
 10
367.5597958436
 20
-56.2275157861
 10
367.3859295568
 20
-58.537313868
 10
367.0968548596
 20
-60.897466977
 10
366.6936333257
 20
-63.2993587879
 10
366.1777295581
 20
-65.7342296663
 10
365.5510269942
 20
-68.1931945403
 10
364.8158173688
 20
-70.6672763605
 10
363.9747770067
 20
-73.1474532464
 10
363.0309799938
 20
-75.6246714153
 10
361.9878665666
 20
-78.0898938489
 10
360.8492431123
 20
-80.5341261493
 10
359.6192663639
 20
-82.9484454351
 10
358.3024223265
 20
-85.3240459668
 10
356.903518375
 20
-87.6522589185
 10
355.4276582294
 20
-89.9245865965
 10
353.8802248326
 20
-92.1327412207
 10
352.2668671792
 20
-94.268661654
 10
350.5934713401
 20
-96.3245544647
 10
348.8661433399
 20
-98.2929220615
 10
347.0911867668
 20
-100.1665756198
 10
345.2750764303
 20
-101.9386867904
 10
343.4244405809
 20
-103.6027827548
 10
341.5460319339
 20
-105.1527903295
 10
339.6467039621
 20
-106.5830618196
 10
337.7333875171
 20
-107.8883702633
 10
335.8130641586
 20
-109.0639552477
 10
333.8927408
 20
-110.1055284195
 10
331.9794243551
 20
-111.0092881218
 10
330.0800963833
 20
-111.7719340305
 10
328.2016877363
 20
-112.3906909161
 10
326.3510518869
 20
-112.8632936225
 10
324.5349415504
 20
-113.1880188141
 10
322.7599849772
 20
-113.3636864941
 10
321.0326569771
 20
-113.3896493557
 10
319.359261138
 20
-113.2658182557
 10
317.7459034846
 20
-112.9926409194
 10
316.1984700877
 20
-112.5711148658
 10
315.7877925129
 20
-112.4302956379
  0
LWPOLYLINE
  5
E9
330
1F
100
AcDbEntity
  8
0
  6
Continuous
 62
     1
370
    25
100
AcDbPolyline
 90
       46
 70
   128
 43
0.0
 10
392.381160213
 20
-61.9316446987
 10
393.1353293348
 20
-62.6377132432
 10
394.1190723405
 20
-63.7473307952
 10
395.004656653
 20
-64.9850231409
 10
395.7882060795
 20
-66.345383786
 10
396.4662988227
 20
-67.8224587454
 10
397.0359661639
 20
-69.4097929315
 10
397.4947188048
 20
-71.1004430845
 10
397.8405495019
 20
-72.8870184576
 10
398.071946237
 20
-74.7617055327
 10
398.1879001198
 20
-76.7163055699
 10
398.1879001198
 20
-78.74227396
 10
398.071946237
 20
-80.8307515006
 10
397.8405495019
 20
-82.9726035593
 10
397.4947188048
 20
-85.1584665561
 10
397.0359661639
 20
-87.3787812342
 10
396.4662988227
 20
-89.6238393324
 10
395.7882060795
 20
-91.8838235083
 10
395.004656653
 20
-94.1488510649
 10
394.1190723405
 20
-96.4090172939
 10
393.1353293348
 20
-98.6544403439
 10
392.0577266146
 20
-100.8753015213
 10
390.8909780415
 20
-103.0618863551
 10
389.640183384
 20
-105.2046393472
 10
388.3108151472
 20
-107.2941852639
 10
386.9086830105
 20
-109.3213907307
 10
385.4399206577
 20
-111.2773870444
 10
383.9109488975
 20
-113.1536279651
 10
382.3284552496
 20
-114.9419030222
 10
380.6993583825
 20
-116.6343945459
 10
379.0307817721
 20
-118.2237019996
 10
377.3300227501
 20
-119.7028750569
 10
375.6045169427
 20
-121.0654462984
 10
373.8618104465
 20
-122.3054563993
 10
372.1095233626
 20
-123.4174873488
 10
370.3553181032
 20
-124.3966685783
 10
368.606865477
 20
-125.2387269585
 10
366.8718107741
 20
-125.9399759599
 10
365.1577409213
 20
-126.4973498229
 10
363.4721514721
 20
-126.9084104463
 10
361.8224125274
 20
-127.1713609775
 10
360.2157391007
 20
-127.2850507527
 10
358.6591545694
 20
-127.2489842288
 10
357.1594682835
 20
-127.0633187003
 10
355.7232353951
 20
-126.7288677169
 10
355.0176312966
 20
-126.501594968
  0
LWPOLYLINE
  5
EA
330
1F
100
AcDbEntity
  8
0
  6
Continuous
 62
     1
370
    25
100
AcDbPolyline
 90
       48
 70
   128
 43
0.0
 10
391.8961105728
 20
-61.5199372171
 10
392.2519234875
 20
-61.7976041988
 10
393.3289137613
 20
-62.7737388445
 10
394.3121009554
 20
-63.8827251601
 10
395.1971821399
 20
-65.1197163118
 10
395.9802863903
 20
-66.4793058058
 10
396.6579945435
 20
-67.955542699
 10
397.2273378808
 20
-69.5419772271
 10
397.6858297381
 20
-71.2316691724
 10
398.0314655061
 20
-73.0172300696
 10
398.2627305322
 20
-74.8908541955
 10
398.3786185605
 20
-76.8443456617
 10
398.3786185605
 20
-78.8691649924
 10
398.2627305322
 20
-80.956457928
 10
398.0314655061
 20
-83.0970949695
 10
397.6858297381
 20
-85.2817184301
 10
397.2273378808
 20
-87.5007738061
 10
396.6579945435
 20
-89.7445581594
 10
395.9802863903
 20
-92.003260231
 10
395.1971821399
 20
-94.267002647
 10
394.3121009554
 20
-96.5258867828
 10
393.3289137613
 20
-98.77003687
 10
392.2519234875
 20
-100.989638018
 10
391.085836093
 20
-103.1749833593
 10
389.8357513466
 20
-105.3165204378
 10
388.5071364846
 20
-107.404881624
 10
387.1057998698
 20
-109.4309358247
 10
385.6378712342
 20
-111.3858242222
 10
384.1097661187
 20
-113.2609990552
 10
382.5281700669
 20
-115.0482601193
 10
380.8999971377
 20
-116.7397924057
 10
379.2323668558
 20
-118.328197659
 10
377.5325726015
 20
-119.8065308755
 10
375.8080453912
 20
-121.168330339
 10
374.0663273704
 20
-122.4076390057
 10
372.3150341536
 20
-123.5190384127
 10
370.5618239138
 20
-124.4976665226
 10
368.8143629733
 20
-125.3392436704
 10
367.0802921359
 20
-126.040095042
 10
365.3671949533
 20
-126.5971537844
 10
363.6825610522
 20
-127.0079791342
 10
362.0337585578
 20
-127.270781463
 10
360.4279958982
 20
-127.384407825
 10
358.8722951335
 20
-127.3483634375
 10
357.3734583701
 20
-127.162803693
 10
355.9380407598
 20
-126.8285406204
 10
354.572318232
 20
-126.347035658
 10
354.4918045804
 20
-126.313116021
  0
ENDSEC
  0
SECTION
  2
OBJECTS
  0
DICTIONARY
  5
C
330
0
100
AcDbDictionary
281
     1
  3
ACAD_GROUP
350
D
  3
ACAD_LAYOUT
350
1A
  3
ACAD_MLINESTYLE
350
17
  3
ACAD_PLOTSETTINGS
350
19
  3
ACAD_PLOTSTYLENAME
350
E
  3
ACAD_SCALELIST
350
47
  0
DICTIONARY
  5
D
102
{ACAD_REACTORS
330
C
102
}
330
C
100
AcDbDictionary
281
     1
  0
DICTIONARY
  5
1A
102
{ACAD_REACTORS
330
C
102
}
330
C
100
AcDbDictionary
281
     1
  3
Layout1
350
1E
  3
Layout2
350
26
  3
Model
350
22
  0
DICTIONARY
  5
17
102
{ACAD_REACTORS
330
C
102
}
330
C
100
AcDbDictionary
281
     1
  3
Standard
350
18
  0
DICTIONARY
  5
19
102
{ACAD_REACTORS
330
C
102
}
330
C
100
AcDbDictionary
281
     1
  0
ACDBDICTIONARYWDFLT
  5
E
102
{ACAD_REACTORS
330
C
102
}
330
C
100
AcDbDictionary
281
     1
  3
Normal
350
F
100
AcDbDictionaryWithDefault
340
F
  0
DICTIONARY
  5
47
102
{ACAD_REACTORS
330
C
102
}
330
C
100
AcDbDictionary
281
     1
  3
A0
350
48
  3
A1
350
49
  3
A2
350
4A
  3
A3
350
4B
  3
A4
350
4C
  3
A5
350
4D
  3
A6
350
4E
  3
A7
350
4F
  3
A8
350
50
  3
A9
350
51
  3
B0
350
52
  3
B1
350
53
  3
B2
350
54
  3
B3
350
55
  3
B4
350
56
  3
B5
350
57
  3
B6
350
58
  3
B7
350
59
  3
B8
350
5A
  3
B9
350
5B
  3
C0
350
5C
  3
C1
350
5D
  3
C2
350
5E
  3
C3
350
5F
  3
C4
350
60
  3
C5
350
61
  3
C6
350
62
  3
C7
350
63
  3
C8
350
64
  3
C9
350
65
  3
D0
350
66
  3
D1
350
67
  3
D2
350
68
  0
LAYOUT
  5
1E
102
{ACAD_REACTORS
330
1A
102
}
330
1A
100
AcDbPlotSettings
  1

  2
none_device
  4

  6

 40
0.0
 41
0.0
 42
0.0
 43
0.0
 44
0.0
 45
0.0
 46
0.0
 47
0.0
 48
0.0
 49
0.0
140
0.0
141
0.0
142
1.0
143
1.0
 70
   688
 72
     1
 73
     0
 74
     5
  7

 75
    16
147
1.0
148
0.0
149
0.0
100
AcDbLayout
  1
Layout1
 70
     1
 71
     1
 10
0.0
 20
0.0
 11
420.0
 21
297.0
 12
0.0
 22
0.0
 32
0.0
 14
1.0000000000E+20
 24
1.0000000000E+20
 34
1.0000000000E+20
 15
-1.0000000000E+20
 25
-1.0000000000E+20
 35
-1.0000000000E+20
146
0.0
 13
0.0
 23
0.0
 33
0.0
 16
1.0
 26
0.0
 36
0.0
 17
0.0
 27
1.0
 37
0.0
 76
     0
330
1B
  0
LAYOUT
  5
26
102
{ACAD_REACTORS
330
1A
102
}
330
1A
100
AcDbPlotSettings
  1

  2
none_device
  4

  6

 40
0.0
 41
0.0
 42
0.0
 43
0.0
 44
0.0
 45
0.0
 46
0.0
 47
0.0
 48
0.0
 49
0.0
140
0.0
141
0.0
142
1.0
143
1.0
 70
   688
 72
     1
 73
     0
 74
     5
  7

 75
    16
147
1.0
148
0.0
149
0.0
100
AcDbLayout
  1
Layout2
 70
     1
 71
     2
 10
0.0
 20
0.0
 11
0.0
 21
0.0
 12
0.0
 22
0.0
 32
0.0
 14
0.0
 24
0.0
 34
0.0
 15
0.0
 25
0.0
 35
0.0
146
0.0
 13
0.0
 23
0.0
 33
0.0
 16
1.0
 26
0.0
 36
0.0
 17
0.0
 27
1.0
 37
0.0
 76
     0
330
23
  0
LAYOUT
  5
22
102
{ACAD_REACTORS
330
1A
102
}
330
1A
100
AcDbPlotSettings
  1

  2
none_device
  4
Letter_(8.50_x_11.00_Inches)
  6

 40
6.35
 41
6.35
 42
6.35000508
 43
6.35000508
 44
215.9
 45
279.4
 46
0.0
 47
0.0
 48
0.0
 49
0.0
140
0.0
141
0.0
142
1.0
143
1.0
 70
  1712
 72
     1
 73
     0
 74
     0
  7

 75
     0
147
1.0
148
0.0
149
0.0
100
AcDbLayout
  1
Model
 70
     1
 71
     0
 10
0.0
 20
0.0
 11
279.4
 21
215.9
 12
0.0
 22
0.0
 32
0.0
 14
0.0
 24
0.0
 34
0.0
 15
279.4
 25
215.9
 35
0.0
146
0.0
 13
0.0
 23
0.0
 33
0.0
 16
1.0
 26
0.0
 36
0.0
 17
0.0
 27
1.0
 37
0.0
 76
     0
330
1F
331
29
  0
MLINESTYLE
  5
18
102
{ACAD_REACTORS
330
17
102
}
330
17
100
AcDbMlineStyle
  2
Standard
 70
     0
  3

 62
   256
 51
90.0
 52
90.0
 71
     2
 49
0.5
 62
   256
  6
BYLAYER
 49
-0.5
 62
   256
  6
BYLAYER
  0
ACDBPLACEHOLDER
  5
F
102
{ACAD_REACTORS
330
E
102
}
330
E
  0
SCALE
  5
48
102
{ACAD_REACTORS
330
47
102
}
330
47
100
AcDbScale
 70
     0
300
1:1
140
1.0
141
1.0
290
     1
  0
SCALE
  5
49
102
{ACAD_REACTORS
330
47
102
}
330
47
100
AcDbScale
 70
     0
300
1:2
140
1.0
141
2.0
290
     0
  0
SCALE
  5
4A
102
{ACAD_REACTORS
330
47
102
}
330
47
100
AcDbScale
 70
     0
300
1:4
140
1.0
141
4.0
290
     0
  0
SCALE
  5
4B
102
{ACAD_REACTORS
330
47
102
}
330
47
100
AcDbScale
 70
     0
300
1:5
140
1.0
141
5.0
290
     0
  0
SCALE
  5
4C
102
{ACAD_REACTORS
330
47
102
}
330
47
100
AcDbScale
 70
     0
300
1:8
140
1.0
141
8.0
290
     0
  0
SCALE
  5
4D
102
{ACAD_REACTORS
330
47
102
}
330
47
100
AcDbScale
 70
     0
300
1:10
140
1.0
141
10.0
290
     0
  0
SCALE
  5
4E
102
{ACAD_REACTORS
330
47
102
}
330
47
100
AcDbScale
 70
     0
300
1:16
140
1.0
141
16.0
290
     0
  0
SCALE
  5
4F
102
{ACAD_REACTORS
330
47
102
}
330
47
100
AcDbScale
 70
     0
300
1:20
140
1.0
141
20.0
290
     0
  0
SCALE
  5
50
102
{ACAD_REACTORS
330
47
102
}
330
47
100
AcDbScale
 70
     0
300
1:30
140
1.0
141
30.0
290
     0
  0
SCALE
  5
51
102
{ACAD_REACTORS
330
47
102
}
330
47
100
AcDbScale
 70
     0
300
1:40
140
1.0
141
40.0
290
     0
  0
SCALE
  5
52
102
{ACAD_REACTORS
330
47
102
}
330
47
100
AcDbScale
 70
     0
300
1:50
140
1.0
141
50.0
290
     0
  0
SCALE
  5
53
102
{ACAD_REACTORS
330
47
102
}
330
47
100
AcDbScale
 70
     0
300
1:100
140
1.0
141
100.0
290
     0
  0
SCALE
  5
54
102
{ACAD_REACTORS
330
47
102
}
330
47
100
AcDbScale
 70
     0
300
2:1
140
2.0
141
1.0
290
     0
  0
SCALE
  5
55
102
{ACAD_REACTORS
330
47
102
}
330
47
100
AcDbScale
 70
     0
300
4:1
140
4.0
141
1.0
290
     0
  0
SCALE
  5
56
102
{ACAD_REACTORS
330
47
102
}
330
47
100
AcDbScale
 70
     0
300
8:1
140
8.0
141
1.0
290
     0
  0
SCALE
  5
57
102
{ACAD_REACTORS
330
47
102
}
330
47
100
AcDbScale
 70
     0
300
10:1
140
10.0
141
1.0
290
     0
  0
SCALE
  5
58
102
{ACAD_REACTORS
330
47
102
}
330
47
100
AcDbScale
 70
     0
300
100:1
140
100.0
141
1.0
290
     0
  0
SCALE
  5
59
102
{ACAD_REACTORS
330
47
102
}
330
47
100
AcDbScale
 70
     0
300
1/128" = 1'-0"
140
0.0078125
141
12.0
290
     0
  0
SCALE
  5
5A
102
{ACAD_REACTORS
330
47
102
}
330
47
100
AcDbScale
 70
     0
300
1/64" = 1'-0"
140
0.015625
141
12.0
290
     0
  0
SCALE
  5
5B
102
{ACAD_REACTORS
330
47
102
}
330
47
100
AcDbScale
 70
     0
300
1/32" = 1'-0"
140
0.03125
141
12.0
290
     0
  0
SCALE
  5
5C
102
{ACAD_REACTORS
330
47
102
}
330
47
100
AcDbScale
 70
     0
300
1/16" = 1'-0"
140
0.0625
141
12.0
290
     0
  0
SCALE
  5
5D
102
{ACAD_REACTORS
330
47
102
}
330
47
100
AcDbScale
 70
     0
300
3/32" = 1'-0"
140
0.09375
141
12.0
290
     0
  0
SCALE
  5
5E
102
{ACAD_REACTORS
330
47
102
}
330
47
100
AcDbScale
 70
     0
300
1/8" = 1'-0"
140
0.125
141
12.0
290
     0
  0
SCALE
  5
5F
102
{ACAD_REACTORS
330
47
102
}
330
47
100
AcDbScale
 70
     0
300
3/16" = 1'-0"
140
0.1875
141
12.0
290
     0
  0
SCALE
  5
60
102
{ACAD_REACTORS
330
47
102
}
330
47
100
AcDbScale
 70
     0
300
1/4" = 1'-0"
140
0.25
141
12.0
290
     0
  0
SCALE
  5
61
102
{ACAD_REACTORS
330
47
102
}
330
47
100
AcDbScale
 70
     0
300
3/8" = 1'-0"
140
0.375
141
12.0
290
     0
  0
SCALE
  5
62
102
{ACAD_REACTORS
330
47
102
}
330
47
100
AcDbScale
 70
     0
300
1/2" = 1'-0"
140
0.5
141
12.0
290
     0
  0
SCALE
  5
63
102
{ACAD_REACTORS
330
47
102
}
330
47
100
AcDbScale
 70
     0
300
3/4" = 1'-0"
140
0.75
141
12.0
290
     0
  0
SCALE
  5
64
102
{ACAD_REACTORS
330
47
102
}
330
47
100
AcDbScale
 70
     0
300
1" = 1'-0"
140
1.0
141
12.0
290
     0
  0
SCALE
  5
65
102
{ACAD_REACTORS
330
47
102
}
330
47
100
AcDbScale
 70
     0
300
1-1/2" = 1'-0"
140
1.5
141
12.0
290
     0
  0
SCALE
  5
66
102
{ACAD_REACTORS
330
47
102
}
330
47
100
AcDbScale
 70
     0
300
3" = 1'-0"
140
3.0
141
12.0
290
     0
  0
SCALE
  5
67
102
{ACAD_REACTORS
330
47
102
}
330
47
100
AcDbScale
 70
     0
300
6" = 1'-0"
140
6.0
141
12.0
290
     0
  0
SCALE
  5
68
102
{ACAD_REACTORS
330
47
102
}
330
47
100
AcDbScale
 70
     0
300
1'-0" = 1'-0"
140
12.0
141
12.0
290
     0
  0
ENDSEC
  0
EOF
